0
SECTION
2
HEADER
9
$INSUNITS
70
4
0
ENDSEC
0
SECTION
2
TABLES
0
TABLE
2
LTYPE
0
LTYPE
72
65
70
64
2
CONTINUOUS
3
______
73
0
40
0
0
ENDTAB
0
TABLE
2
LAYER
0
ENDTAB
0
ENDSEC
0
SECTION
2
ENTITIES
0
LINE
8
0
10
-9.5
20
-9.5
11
9.5
21
-9.5
0
LINE
8
0
10
9.5
20
-9.5
11
9.5
21
0.5
0
LINE
8
0
10
-9.5
20
-9.5
11
-9.5
21
47.5
0
LINE
8
0
10
9.5
20
47.5
11
-9.5
21
47.5
0
LINE
8
0
10
9.5
20
0.5
11
28.5
21
0.5
0
LINE
8
0
10
28.5
20
0.5
11
28.5
21
3.5
0
LINE
8
0
10
28.5
20
57.5
11
9.5
21
57.5
0
LINE
8
0
10
9.5
20
57.5
11
9.5
21
47.5
0
LINE
8
0
10
28.5
20
3.5
11
47.5
21
3.5
0
LINE
8
0
10
47.5
20
54.5
11
47.5
21
60.5
0
LINE
8
0
10
47.5
20
60.5
11
28.5
21
60.5
0
LINE
8
0
10
28.5
20
60.5
11
28.5
21
57.5
0
LINE
8
0
10
47.5
20
-2.5
11
85.5
21
-2.5
0
LINE
8
0
10
47.5
20
3.5
11
47.5
21
-2.5
0
LINE
8
0
10
47.5
20
54.5
11
85.5
21
54.5
0
LINE
8
0
10
85.5
20
-2.5
11
85.5
21
54.5
0
LINE
8
0
10
45.3649237
20
-28.2175144
11
63.7175144
21
-33.1350763
0
LINE
8
0
10
63.7175144
20
-33.1350763
11
68.6350763
21
-14.7824856
0
LINE
8
0
10
68.6350763
20
-14.7824856
11
50.2824856
21
-9.8649237
0
LINE
8
0
10
50.2824856
20
-9.8649237
11
45.3649237
21
-28.2175144
0
LINE
8
0
10
66.5715018
20
-34.626854
11
83.0259844
21
-44.126854
0
LINE
8
0
10
83.0259844
20
-44.126854
11
92.5259844
21
-27.6723714
0
LINE
8
0
10
92.5259844
20
-27.6723714
11
76.0715018
21
-18.1723714
0
LINE
8
0
10
76.0715018
20
-18.1723714
11
66.5715018
21
-34.626854
0
LINE
8
0
10
85.4431124
20
-45.8170567
11
98.8781412
21
-59.2520855
0
LINE
8
0
10
98.8781412
20
-59.2520855
11
112.31317
21
-45.8170567
0
LINE
8
0
10
112.31317
20
-45.8170567
11
98.8781412
21
-32.3820279
0
LINE
8
0
10
98.8781412
20
-32.3820279
11
85.4431124
21
-45.8170567
0
LINE
8
0
10
99.3251352
20
-60.1918482
11
111.5380998
21
-74.7466926
0
LINE
8
0
10
111.5380998
20
-74.7466926
11
126.0929442
21
-62.533728
0
LINE
8
0
10
126.0929442
20
-62.533728
11
113.8799796
21
-47.9788836
0
LINE
8
0
10
113.8799796
20
-47.9788836
11
99.3251352
21
-60.1918482
0
LINE
8
0
10
256.5
20
-9.5
11
275.5
21
-9.5
0
LINE
8
0
10
275.5
20
-9.5
11
275.5
21
47.5
0
LINE
8
0
10
256.5
20
0.5
11
256.5
21
-9.5
0
LINE
8
0
10
275.5
20
47.5
11
256.5
21
47.5
0
LINE
8
0
10
237.5
20
0.5
11
256.5
21
0.5
0
LINE
8
0
10
237.5
20
3.5
11
237.5
21
0.5
0
LINE
8
0
10
256.5
20
47.5
11
256.5
21
57.5
0
LINE
8
0
10
256.5
20
57.5
11
237.5
21
57.5
0
LINE
8
0
10
218.5
20
3.5
11
237.5
21
3.5
0
LINE
8
0
10
237.5
20
57.5
11
237.5
21
60.5
0
LINE
8
0
10
237.5
20
60.5
11
218.5
21
60.5
0
LINE
8
0
10
218.5
20
60.5
11
218.5
21
54.5
0
LINE
8
0
10
180.5
20
-2.5
11
218.5
21
-2.5
0
LINE
8
0
10
218.5
20
-2.5
11
218.5
21
3.5
0
LINE
8
0
10
180.5
20
54.5
11
218.5
21
54.5
0
LINE
8
0
10
180.5
20
-2.5
11
180.5
21
54.5
0
LINE
8
0
10
202.2824856
20
-33.1350763
11
220.6350763
21
-28.2175144
0
LINE
8
0
10
220.6350763
20
-28.2175144
11
215.7175144
21
-9.8649237
0
LINE
8
0
10
215.7175144
20
-9.8649237
11
197.3649237
21
-14.7824856
0
LINE
8
0
10
197.3649237
20
-14.7824856
11
202.2824856
21
-33.1350763
0
LINE
8
0
10
182.9740156
20
-44.126854
11
199.4284982
21
-34.626854
0
LINE
8
0
10
199.4284982
20
-34.626854
11
189.9284982
21
-18.1723714
0
LINE
8
0
10
189.9284982
20
-18.1723714
11
173.4740156
21
-27.6723714
0
LINE
8
0
10
173.4740156
20
-27.6723714
11
182.9740156
21
-44.126854
0
LINE
8
0
10
167.1218588
20
-59.2520855
11
180.5568876
21
-45.8170567
0
LINE
8
0
10
180.5568876
20
-45.8170567
11
167.1218588
21
-32.3820279
0
LINE
8
0
10
167.1218588
20
-32.3820279
11
153.68683
21
-45.8170567
0
LINE
8
0
10
153.68683
20
-45.8170567
11
167.1218588
21
-59.2520855
0
LINE
8
0
10
154.4619002
20
-74.7466926
11
166.6748648
21
-60.1918482
0
LINE
8
0
10
166.6748648
20
-60.1918482
11
152.1200204
21
-47.9788836
0
LINE
8
0
10
152.1200204
20
-47.9788836
11
139.9070558
21
-62.533728
0
LINE
8
0
10
139.9070558
20
-62.533728
11
154.4619002
21
-74.7466926
0
ENDSEC
0
EOF