0
SECTION
2
HEADER
9
$INSUNITS
70
4
0
ENDSEC
0
SECTION
2
TABLES
0
TABLE
2
LTYPE
0
LTYPE
72
65
70
64
2
CONTINUOUS
3
______
73
0
40
0
0
ENDTAB
0
TABLE
2
LAYER
0
ENDTAB
0
ENDSEC
0
SECTION
2
ENTITIES
0
LINE
8
0
10
-19
20
-15.2876799
11
-19
21
53.9813393
0
LINE
8
0
10
-16.3287321
20
58.4059305
11
-0.7319274
21
66.6147751
0
LINE
8
0
10
0.8169917
20
67.1289987
11
18.220187
21
69.8768716
0
LINE
8
0
10
19.779813
20
69.8768716
11
56.6124937
21
64.0611852
0
LINE
8
0
10
57.3923066
20
64
11
208.6076934
21
64
0
LINE
8
0
10
209.3875063
20
64.0611852
11
246.220187
21
69.8768716
0
LINE
8
0
10
247.779813
20
69.8768716
11
265.1830083
21
67.1289987
0
LINE
8
0
10
266.7319274
20
66.6147751
11
282.3287321
21
58.4059305
0
LINE
8
0
10
285
20
53.9813393
11
285
21
-15.2876799
0
LINE
8
0
10
281.4464025
20
-20.0739018
11
233.026094
21
-34.7065823
0
LINE
8
0
10
231.6214139
20
-35.385332
11
156.918679
21
-87.2380693
0
LINE
8
0
10
154.0675963
20
-88.1305971
11
111.9324037
21
-88.1305971
0
LINE
8
0
10
109.081321
20
-87.2380693
11
34.3785861
21
-35.385332
0
LINE
8
0
10
32.973906
20
-34.7065823
11
-15.4464025
21
-20.0739018
0
ARC
8
0
10
-14
20
53.9813393
40
5
50
117.7585395
51
180
0
ARC
8
0
10
1.5968047
20
62.1901839
40
5
50
98.9726278
51
117.7585395
0
ARC
8
0
10
19
20
64.9380568
40
5
50
81.0273722
51
98.9726278
0
ARC
8
0
10
57.3923066
20
69
40
5
50
261.0273722
51
270
0
ARC
8
0
10
208.6076934
20
69
40
5
50
270
51
278.9726278
0
ARC
8
0
10
247
20
64.9380568
40
5
50
81.0273722
51
98.9726278
0
ARC
8
0
10
264.4031953
20
62.1901839
40
5
50
62.2414605
51
81.0273722
0
ARC
8
0
10
280
20
53.9813393
40
5
50
0
51
62.2414605
0
ARC
8
0
10
280
20
-15.2876799
40
5
50
286.8148851
51
0
0
ARC
8
0
10
234.4724965
20
-39.4928042
40
5
50
106.8148851
51
124.7653262
0
ARC
8
0
10
154.0675963
20
-83.1305971
40
5
50
270
51
304.7653262
0
ARC
8
0
10
111.9324037
20
-83.1305971
40
5
50
235.2346738
51
270
0
ARC
8
0
10
31.5275035
20
-39.4928042
40
5
50
55.2346738
51
73.1851149
0
ARC
8
0
10
-14
20
-15.2876799
40
5
50
180
51
253.1851149
0
ENDSEC
0
EOF