0
SECTION
2
HEADER
9
$INSUNITS
70
4
0
ENDSEC
0
SECTION
2
TABLES
0
TABLE
2
LTYPE
0
LTYPE
72
65
70
64
2
CONTINUOUS
3
______
73
0
40
0
0
ENDTAB
0
TABLE
2
LAYER
0
ENDTAB
0
ENDSEC
0
SECTION
2
ENTITIES
0
LINE
8
0
10
-9.25
20
-9.25
11
9.25
21
-9.25
0
LINE
8
0
10
9.25
20
-9.25
11
9.25
21
9.25
0
LINE
8
0
10
9.25
20
9.25
11
-9.25
21
9.25
0
LINE
8
0
10
-9.25
20
9.25
11
-9.25
21
-9.25
0
LINE
8
0
10
-9.25
20
9.75
11
9.25
21
9.75
0
LINE
8
0
10
9.25
20
9.75
11
9.25
21
28.25
0
LINE
8
0
10
9.25
20
28.25
11
-9.25
21
28.25
0
LINE
8
0
10
-9.25
20
28.25
11
-9.25
21
9.75
0
LINE
8
0
10
-9.25
20
28.75
11
9.25
21
28.75
0
LINE
8
0
10
9.25
20
28.75
11
9.25
21
47.25
0
LINE
8
0
10
9.25
20
47.25
11
-9.25
21
47.25
0
LINE
8
0
10
-9.25
20
47.25
11
-9.25
21
28.75
0
LINE
8
0
10
9.75
20
0.75
11
28.25
21
0.75
0
LINE
8
0
10
28.25
20
0.75
11
28.25
21
19.25
0
LINE
8
0
10
28.25
20
19.25
11
9.75
21
19.25
0
LINE
8
0
10
9.75
20
19.25
11
9.75
21
0.75
0
LINE
8
0
10
9.75
20
19.75
11
28.25
21
19.75
0
LINE
8
0
10
28.25
20
19.75
11
28.25
21
38.25
0
LINE
8
0
10
28.25
20
38.25
11
9.75
21
38.25
0
LINE
8
0
10
9.75
20
38.25
11
9.75
21
19.75
0
LINE
8
0
10
9.75
20
38.75
11
28.25
21
38.75
0
LINE
8
0
10
28.25
20
38.75
11
28.25
21
57.25
0
LINE
8
0
10
28.25
20
57.25
11
9.75
21
57.25
0
LINE
8
0
10
9.75
20
57.25
11
9.75
21
38.75
0
LINE
8
0
10
28.75
20
3.75
11
47.25
21
3.75
0
LINE
8
0
10
47.25
20
3.75
11
47.25
21
22.25
0
LINE
8
0
10
47.25
20
22.25
11
28.75
21
22.25
0
LINE
8
0
10
28.75
20
22.25
11
28.75
21
3.75
0
LINE
8
0
10
28.75
20
22.75
11
47.25
21
22.75
0
LINE
8
0
10
47.25
20
22.75
11
47.25
21
41.25
0
LINE
8
0
10
47.25
20
41.25
11
28.75
21
41.25
0
LINE
8
0
10
28.75
20
41.25
11
28.75
21
22.75
0
LINE
8
0
10
28.75
20
41.75
11
47.25
21
41.75
0
LINE
8
0
10
47.25
20
41.75
11
47.25
21
60.25
0
LINE
8
0
10
47.25
20
60.25
11
28.75
21
60.25
0
LINE
8
0
10
28.75
20
60.25
11
28.75
21
41.75
0
LINE
8
0
10
47.75
20
-2.25
11
66.25
21
-2.25
0
LINE
8
0
10
66.25
20
-2.25
11
66.25
21
16.25
0
LINE
8
0
10
66.25
20
16.25
11
47.75
21
16.25
0
LINE
8
0
10
47.75
20
16.25
11
47.75
21
-2.25
0
LINE
8
0
10
47.75
20
16.75
11
66.25
21
16.75
0
LINE
8
0
10
66.25
20
16.75
11
66.25
21
35.25
0
LINE
8
0
10
66.25
20
35.25
11
47.75
21
35.25
0
LINE
8
0
10
47.75
20
35.25
11
47.75
21
16.75
0
LINE
8
0
10
47.75
20
35.75
11
66.25
21
35.75
0
LINE
8
0
10
66.25
20
35.75
11
66.25
21
54.25
0
LINE
8
0
10
66.25
20
54.25
11
47.75
21
54.25
0
LINE
8
0
10
47.75
20
54.25
11
47.75
21
35.75
0
LINE
8
0
10
66.75
20
-2.25
11
85.25
21
-2.25
0
LINE
8
0
10
85.25
20
-2.25
11
85.25
21
16.25
0
LINE
8
0
10
85.25
20
16.25
11
66.75
21
16.25
0
LINE
8
0
10
66.75
20
16.25
11
66.75
21
-2.25
0
LINE
8
0
10
66.75
20
16.75
11
85.25
21
16.75
0
LINE
8
0
10
85.25
20
16.75
11
85.25
21
35.25
0
LINE
8
0
10
85.25
20
35.25
11
66.75
21
35.25
0
LINE
8
0
10
66.75
20
35.25
11
66.75
21
16.75
0
LINE
8
0
10
66.75
20
35.75
11
85.25
21
35.75
0
LINE
8
0
10
85.25
20
35.75
11
85.25
21
54.25
0
LINE
8
0
10
85.25
20
54.25
11
66.75
21
54.25
0
LINE
8
0
10
66.75
20
54.25
11
66.75
21
35.75
0
LINE
8
0
10
45.6711099
20
-28.0407377
11
63.5407377
21
-32.8288901
0
LINE
8
0
10
63.5407377
20
-32.8288901
11
68.3288901
21
-14.9592623
0
LINE
8
0
10
68.3288901
20
-14.9592623
11
50.4592623
21
-10.1711099
0
LINE
8
0
10
50.4592623
20
-10.1711099
11
45.6711099
21
-28.0407377
0
LINE
8
0
10
66.9130081
20
-34.5353477
11
82.9344781
21
-43.7853477
0
LINE
8
0
10
82.9344781
20
-43.7853477
11
92.1844781
21
-27.7638777
0
LINE
8
0
10
92.1844781
20
-27.7638777
11
76.1630081
21
-18.5138777
0
LINE
8
0
10
76.1630081
20
-18.5138777
11
66.9130081
21
-34.5353477
0
LINE
8
0
10
85.7966657
20
-45.8170567
11
98.8781412
21
-58.8985322
0
LINE
8
0
10
98.8781412
20
-58.8985322
11
111.9596167
21
-45.8170567
0
LINE
8
0
10
111.9596167
20
-45.8170567
11
98.8781412
21
-32.7355812
0
LINE
8
0
10
98.8781412
20
-32.7355812
11
85.7966657
21
-45.8170567
0
LINE
8
0
10
99.6773432
20
-60.2226624
11
111.568914
21
-74.3944846
0
LINE
8
0
10
111.568914
20
-74.3944846
11
125.7407362
21
-62.5029138
0
LINE
8
0
10
125.7407362
20
-62.5029138
11
113.8491654
21
-48.3310916
0
LINE
8
0
10
113.8491654
20
-48.3310916
11
99.6773432
21
-60.2226624
0
LINE
8
0
10
256.75
20
-9.25
11
275.25
21
-9.25
0
LINE
8
0
10
275.25
20
-9.25
11
275.25
21
9.25
0
LINE
8
0
10
275.25
20
9.25
11
256.75
21
9.25
0
LINE
8
0
10
256.75
20
9.25
11
256.75
21
-9.25
0
LINE
8
0
10
256.75
20
9.75
11
275.25
21
9.75
0
LINE
8
0
10
275.25
20
9.75
11
275.25
21
28.25
0
LINE
8
0
10
275.25
20
28.25
11
256.75
21
28.25
0
LINE
8
0
10
256.75
20
28.25
11
256.75
21
9.75
0
LINE
8
0
10
256.75
20
28.75
11
275.25
21
28.75
0
LINE
8
0
10
275.25
20
28.75
11
275.25
21
47.25
0
LINE
8
0
10
275.25
20
47.25
11
256.75
21
47.25
0
LINE
8
0
10
256.75
20
47.25
11
256.75
21
28.75
0
LINE
8
0
10
237.75
20
0.75
11
256.25
21
0.75
0
LINE
8
0
10
256.25
20
0.75
11
256.25
21
19.25
0
LINE
8
0
10
256.25
20
19.25
11
237.75
21
19.25
0
LINE
8
0
10
237.75
20
19.25
11
237.75
21
0.75
0
LINE
8
0
10
237.75
20
19.75
11
256.25
21
19.75
0
LINE
8
0
10
256.25
20
19.75
11
256.25
21
38.25
0
LINE
8
0
10
256.25
20
38.25
11
237.75
21
38.25
0
LINE
8
0
10
237.75
20
38.25
11
237.75
21
19.75
0
LINE
8
0
10
237.75
20
38.75
11
256.25
21
38.75
0
LINE
8
0
10
256.25
20
38.75
11
256.25
21
57.25
0
LINE
8
0
10
256.25
20
57.25
11
237.75
21
57.25
0
LINE
8
0
10
237.75
20
57.25
11
237.75
21
38.75
0
LINE
8
0
10
218.75
20
3.75
11
237.25
21
3.75
0
LINE
8
0
10
237.25
20
3.75
11
237.25
21
22.25
0
LINE
8
0
10
237.25
20
22.25
11
218.75
21
22.25
0
LINE
8
0
10
218.75
20
22.25
11
218.75
21
3.75
0
LINE
8
0
10
218.75
20
22.75
11
237.25
21
22.75
0
LINE
8
0
10
237.25
20
22.75
11
237.25
21
41.25
0
LINE
8
0
10
237.25
20
41.25
11
218.75
21
41.25
0
LINE
8
0
10
218.75
20
41.25
11
218.75
21
22.75
0
LINE
8
0
10
218.75
20
41.75
11
237.25
21
41.75
0
LINE
8
0
10
237.25
20
41.75
11
237.25
21
60.25
0
LINE
8
0
10
237.25
20
60.25
11
218.75
21
60.25
0
LINE
8
0
10
218.75
20
60.25
11
218.75
21
41.75
0
LINE
8
0
10
199.75
20
-2.25
11
218.25
21
-2.25
0
LINE
8
0
10
218.25
20
-2.25
11
218.25
21
16.25
0
LINE
8
0
10
218.25
20
16.25
11
199.75
21
16.25
0
LINE
8
0
10
199.75
20
16.25
11
199.75
21
-2.25
0
LINE
8
0
10
199.75
20
16.75
11
218.25
21
16.75
0
LINE
8
0
10
218.25
20
16.75
11
218.25
21
35.25
0
LINE
8
0
10
218.25
20
35.25
11
199.75
21
35.25
0
LINE
8
0
10
199.75
20
35.25
11
199.75
21
16.75
0
LINE
8
0
10
199.75
20
35.75
11
218.25
21
35.75
0
LINE
8
0
10
218.25
20
35.75
11
218.25
21
54.25
0
LINE
8
0
10
218.25
20
54.25
11
199.75
21
54.25
0
LINE
8
0
10
199.75
20
54.25
11
199.75
21
35.75
0
LINE
8
0
10
180.75
20
-2.25
11
199.25
21
-2.25
0
LINE
8
0
10
199.25
20
-2.25
11
199.25
21
16.25
0
LINE
8
0
10
199.25
20
16.25
11
180.75
21
16.25
0
LINE
8
0
10
180.75
20
16.25
11
180.75
21
-2.25
0
LINE
8
0
10
180.75
20
16.75
11
199.25
21
16.75
0
LINE
8
0
10
199.25
20
16.75
11
199.25
21
35.25
0
LINE
8
0
10
199.25
20
35.25
11
180.75
21
35.25
0
LINE
8
0
10
180.75
20
35.25
11
180.75
21
16.75
0
LINE
8
0
10
180.75
20
35.75
11
199.25
21
35.75
0
LINE
8
0
10
199.25
20
35.75
11
199.25
21
54.25
0
LINE
8
0
10
199.25
20
54.25
11
180.75
21
54.25
0
LINE
8
0
10
180.75
20
54.25
11
180.75
21
35.75
0
LINE
8
0
10
202.4592623
20
-32.8288901
11
220.3288901
21
-28.0407377
0
LINE
8
0
10
220.3288901
20
-28.0407377
11
215.5407377
21
-10.1711099
0
LINE
8
0
10
215.5407377
20
-10.1711099
11
197.6711099
21
-14.9592623
0
LINE
8
0
10
197.6711099
20
-14.9592623
11
202.4592623
21
-32.8288901
0
LINE
8
0
10
183.0655219
20
-43.7853477
11
199.0869919
21
-34.5353477
0
LINE
8
0
10
199.0869919
20
-34.5353477
11
189.8369919
21
-18.5138777
0
LINE
8
0
10
189.8369919
20
-18.5138777
11
173.8155219
21
-27.7638777
0
LINE
8
0
10
173.8155219
20
-27.7638777
11
183.0655219
21
-43.7853477
0
LINE
8
0
10
167.1218588
20
-58.8985322
11
180.2033343
21
-45.8170567
0
LINE
8
0
10
180.2033343
20
-45.8170567
11
167.1218588
21
-32.7355812
0
LINE
8
0
10
167.1218588
20
-32.7355812
11
154.0403833
21
-45.8170567
0
LINE
8
0
10
154.0403833
20
-45.8170567
11
167.1218588
21
-58.8985322
0
LINE
8
0
10
154.431086
20
-74.3944846
11
166.3226568
21
-60.2226624
0
LINE
8
0
10
166.3226568
20
-60.2226624
11
152.1508346
21
-48.3310916
0
LINE
8
0
10
152.1508346
20
-48.3310916
11
140.2592638
21
-62.5029138
0
LINE
8
0
10
140.2592638
20
-62.5029138
11
154.431086
21
-74.3944846
0
ENDSEC
0
EOF