0
SECTION
2
HEADER
9
$INSUNITS
70
4
0
ENDSEC
0
SECTION
2
TABLES
0
TABLE
2
LTYPE
0
LTYPE
72
65
70
64
2
CONTINUOUS
3
______
73
0
40
0
0
ENDTAB
0
TABLE
2
LAYER
0
ENDTAB
0
ENDSEC
0
SECTION
2
ENTITIES
0
LINE
8
0
10
-19
20
-15.2876799
11
-19
21
53.9813393
0
LINE
8
0
10
-16.3287321
20
58.4059305
11
-0.7319274
21
66.6147751
0
LINE
8
0
10
0.8169917
20
67.1289987
11
18.220187
21
69.8768716
0
LINE
8
0
10
19.779813
20
69.8768716
11
56.6124937
21
64.0611852
0
LINE
8
0
10
57.3923066
20
64
11
208.6076934
21
64
0
LINE
8
0
10
209.3875063
20
64.0611852
11
246.220187
21
69.8768716
0
LINE
8
0
10
247.779813
20
69.8768716
11
265.1830083
21
67.1289987
0
LINE
8
0
10
266.7319274
20
66.6147751
11
282.3287321
21
58.4059305
0
LINE
8
0
10
285
20
53.9813393
11
285
21
-15.2876799
0
LINE
8
0
10
281.4464025
20
-20.0739018
11
233.026094
21
-34.7065823
0
LINE
8
0
10
231.6214139
20
-35.385332
11
156.918679
21
-87.2380693
0
LINE
8
0
10
154.0675963
20
-88.1305971
11
111.9324037
21
-88.1305971
0
LINE
8
0
10
109.081321
20
-87.2380693
11
34.3785861
21
-35.385332
0
LINE
8
0
10
32.973906
20
-34.7065823
11
-15.4464025
21
-20.0739018
0
ARC
8
0
10
-14
20
53.9813393
40
5
50
117.7585395
51
180
0
ARC
8
0
10
1.5968047
20
62.1901839
40
5
50
98.9726278
51
117.7585395
0
ARC
8
0
10
19
20
64.9380568
40
5
50
81.0273722
51
98.9726278
0
ARC
8
0
10
57.3923066
20
69
40
5
50
261.0273722
51
270
0
ARC
8
0
10
208.6076934
20
69
40
5
50
270
51
278.9726278
0
ARC
8
0
10
247
20
64.9380568
40
5
50
81.0273722
51
98.9726278
0
ARC
8
0
10
264.4031953
20
62.1901839
40
5
50
62.2414605
51
81.0273722
0
ARC
8
0
10
280
20
53.9813393
40
5
50
0
51
62.2414605
0
ARC
8
0
10
280
20
-15.2876799
40
5
50
286.8148851
51
0
0
ARC
8
0
10
234.4724965
20
-39.4928042
40
5
50
106.8148851
51
124.7653262
0
ARC
8
0
10
154.0675963
20
-83.1305971
40
5
50
270
51
304.7653262
0
ARC
8
0
10
111.9324037
20
-83.1305971
40
5
50
235.2346738
51
270
0
ARC
8
0
10
31.5275035
20
-39.4928042
40
5
50
55.2346738
51
73.1851149
0
ARC
8
0
10
-14
20
-15.2876799
40
5
50
180
51
253.1851149
0
LINE
8
0
10
-9.25
20
-9.25
11
9.25
21
-9.25
0
LINE
8
0
10
9.25
20
-9.25
11
9.25
21
9.25
0
LINE
8
0
10
9.25
20
9.25
11
-9.25
21
9.25
0
LINE
8
0
10
-9.25
20
9.25
11
-9.25
21
-9.25
0
LINE
8
0
10
-9.25
20
9.75
11
9.25
21
9.75
0
LINE
8
0
10
9.25
20
9.75
11
9.25
21
28.25
0
LINE
8
0
10
9.25
20
28.25
11
-9.25
21
28.25
0
LINE
8
0
10
-9.25
20
28.25
11
-9.25
21
9.75
0
LINE
8
0
10
-9.25
20
28.75
11
9.25
21
28.75
0
LINE
8
0
10
9.25
20
28.75
11
9.25
21
47.25
0
LINE
8
0
10
9.25
20
47.25
11
-9.25
21
47.25
0
LINE
8
0
10
-9.25
20
47.25
11
-9.25
21
28.75
0
LINE
8
0
10
9.75
20
0.75
11
28.25
21
0.75
0
LINE
8
0
10
28.25
20
0.75
11
28.25
21
19.25
0
LINE
8
0
10
28.25
20
19.25
11
9.75
21
19.25
0
LINE
8
0
10
9.75
20
19.25
11
9.75
21
0.75
0
LINE
8
0
10
9.75
20
19.75
11
28.25
21
19.75
0
LINE
8
0
10
28.25
20
19.75
11
28.25
21
38.25
0
LINE
8
0
10
28.25
20
38.25
11
9.75
21
38.25
0
LINE
8
0
10
9.75
20
38.25
11
9.75
21
19.75
0
LINE
8
0
10
9.75
20
38.75
11
28.25
21
38.75
0
LINE
8
0
10
28.25
20
38.75
11
28.25
21
57.25
0
LINE
8
0
10
28.25
20
57.25
11
9.75
21
57.25
0
LINE
8
0
10
9.75
20
57.25
11
9.75
21
38.75
0
LINE
8
0
10
28.75
20
3.75
11
47.25
21
3.75
0
LINE
8
0
10
47.25
20
3.75
11
47.25
21
22.25
0
LINE
8
0
10
47.25
20
22.25
11
28.75
21
22.25
0
LINE
8
0
10
28.75
20
22.25
11
28.75
21
3.75
0
LINE
8
0
10
28.75
20
22.75
11
47.25
21
22.75
0
LINE
8
0
10
47.25
20
22.75
11
47.25
21
41.25
0
LINE
8
0
10
47.25
20
41.25
11
28.75
21
41.25
0
LINE
8
0
10
28.75
20
41.25
11
28.75
21
22.75
0
LINE
8
0
10
28.75
20
41.75
11
47.25
21
41.75
0
LINE
8
0
10
47.25
20
41.75
11
47.25
21
60.25
0
LINE
8
0
10
47.25
20
60.25
11
28.75
21
60.25
0
LINE
8
0
10
28.75
20
60.25
11
28.75
21
41.75
0
LINE
8
0
10
47.75
20
-2.25
11
66.25
21
-2.25
0
LINE
8
0
10
66.25
20
-2.25
11
66.25
21
16.25
0
LINE
8
0
10
66.25
20
16.25
11
47.75
21
16.25
0
LINE
8
0
10
47.75
20
16.25
11
47.75
21
-2.25
0
LINE
8
0
10
47.75
20
16.75
11
66.25
21
16.75
0
LINE
8
0
10
66.25
20
16.75
11
66.25
21
35.25
0
LINE
8
0
10
66.25
20
35.25
11
47.75
21
35.25
0
LINE
8
0
10
47.75
20
35.25
11
47.75
21
16.75
0
LINE
8
0
10
47.75
20
35.75
11
66.25
21
35.75
0
LINE
8
0
10
66.25
20
35.75
11
66.25
21
54.25
0
LINE
8
0
10
66.25
20
54.25
11
47.75
21
54.25
0
LINE
8
0
10
47.75
20
54.25
11
47.75
21
35.75
0
LINE
8
0
10
66.75
20
-2.25
11
85.25
21
-2.25
0
LINE
8
0
10
85.25
20
-2.25
11
85.25
21
16.25
0
LINE
8
0
10
85.25
20
16.25
11
66.75
21
16.25
0
LINE
8
0
10
66.75
20
16.25
11
66.75
21
-2.25
0
LINE
8
0
10
66.75
20
16.75
11
85.25
21
16.75
0
LINE
8
0
10
85.25
20
16.75
11
85.25
21
35.25
0
LINE
8
0
10
85.25
20
35.25
11
66.75
21
35.25
0
LINE
8
0
10
66.75
20
35.25
11
66.75
21
16.75
0
LINE
8
0
10
66.75
20
35.75
11
85.25
21
35.75
0
LINE
8
0
10
85.25
20
35.75
11
85.25
21
54.25
0
LINE
8
0
10
85.25
20
54.25
11
66.75
21
54.25
0
LINE
8
0
10
66.75
20
54.25
11
66.75
21
35.75
0
LINE
8
0
10
45.6711099
20
-28.0407377
11
63.5407377
21
-32.8288901
0
LINE
8
0
10
63.5407377
20
-32.8288901
11
68.3288901
21
-14.9592623
0
LINE
8
0
10
68.3288901
20
-14.9592623
11
50.4592623
21
-10.1711099
0
LINE
8
0
10
50.4592623
20
-10.1711099
11
45.6711099
21
-28.0407377
0
LINE
8
0
10
66.9130081
20
-34.5353477
11
82.9344781
21
-43.7853477
0
LINE
8
0
10
82.9344781
20
-43.7853477
11
92.1844781
21
-27.7638777
0
LINE
8
0
10
92.1844781
20
-27.7638777
11
76.1630081
21
-18.5138777
0
LINE
8
0
10
76.1630081
20
-18.5138777
11
66.9130081
21
-34.5353477
0
LINE
8
0
10
85.7966657
20
-45.8170567
11
98.8781412
21
-58.8985322
0
LINE
8
0
10
98.8781412
20
-58.8985322
11
111.9596167
21
-45.8170567
0
LINE
8
0
10
111.9596167
20
-45.8170567
11
98.8781412
21
-32.7355812
0
LINE
8
0
10
98.8781412
20
-32.7355812
11
85.7966657
21
-45.8170567
0
LINE
8
0
10
99.6773432
20
-60.2226624
11
111.568914
21
-74.3944846
0
LINE
8
0
10
111.568914
20
-74.3944846
11
125.7407362
21
-62.5029138
0
LINE
8
0
10
125.7407362
20
-62.5029138
11
113.8491654
21
-48.3310916
0
LINE
8
0
10
113.8491654
20
-48.3310916
11
99.6773432
21
-60.2226624
0
LINE
8
0
10
256.75
20
-9.25
11
275.25
21
-9.25
0
LINE
8
0
10
275.25
20
-9.25
11
275.25
21
9.25
0
LINE
8
0
10
275.25
20
9.25
11
256.75
21
9.25
0
LINE
8
0
10
256.75
20
9.25
11
256.75
21
-9.25
0
LINE
8
0
10
256.75
20
9.75
11
275.25
21
9.75
0
LINE
8
0
10
275.25
20
9.75
11
275.25
21
28.25
0
LINE
8
0
10
275.25
20
28.25
11
256.75
21
28.25
0
LINE
8
0
10
256.75
20
28.25
11
256.75
21
9.75
0
LINE
8
0
10
256.75
20
28.75
11
275.25
21
28.75
0
LINE
8
0
10
275.25
20
28.75
11
275.25
21
47.25
0
LINE
8
0
10
275.25
20
47.25
11
256.75
21
47.25
0
LINE
8
0
10
256.75
20
47.25
11
256.75
21
28.75
0
LINE
8
0
10
237.75
20
0.75
11
256.25
21
0.75
0
LINE
8
0
10
256.25
20
0.75
11
256.25
21
19.25
0
LINE
8
0
10
256.25
20
19.25
11
237.75
21
19.25
0
LINE
8
0
10
237.75
20
19.25
11
237.75
21
0.75
0
LINE
8
0
10
237.75
20
19.75
11
256.25
21
19.75
0
LINE
8
0
10
256.25
20
19.75
11
256.25
21
38.25
0
LINE
8
0
10
256.25
20
38.25
11
237.75
21
38.25
0
LINE
8
0
10
237.75
20
38.25
11
237.75
21
19.75
0
LINE
8
0
10
237.75
20
38.75
11
256.25
21
38.75
0
LINE
8
0
10
256.25
20
38.75
11
256.25
21
57.25
0
LINE
8
0
10
256.25
20
57.25
11
237.75
21
57.25
0
LINE
8
0
10
237.75
20
57.25
11
237.75
21
38.75
0
LINE
8
0
10
218.75
20
3.75
11
237.25
21
3.75
0
LINE
8
0
10
237.25
20
3.75
11
237.25
21
22.25
0
LINE
8
0
10
237.25
20
22.25
11
218.75
21
22.25
0
LINE
8
0
10
218.75
20
22.25
11
218.75
21
3.75
0
LINE
8
0
10
218.75
20
22.75
11
237.25
21
22.75
0
LINE
8
0
10
237.25
20
22.75
11
237.25
21
41.25
0
LINE
8
0
10
237.25
20
41.25
11
218.75
21
41.25
0
LINE
8
0
10
218.75
20
41.25
11
218.75
21
22.75
0
LINE
8
0
10
218.75
20
41.75
11
237.25
21
41.75
0
LINE
8
0
10
237.25
20
41.75
11
237.25
21
60.25
0
LINE
8
0
10
237.25
20
60.25
11
218.75
21
60.25
0
LINE
8
0
10
218.75
20
60.25
11
218.75
21
41.75
0
LINE
8
0
10
199.75
20
-2.25
11
218.25
21
-2.25
0
LINE
8
0
10
218.25
20
-2.25
11
218.25
21
16.25
0
LINE
8
0
10
218.25
20
16.25
11
199.75
21
16.25
0
LINE
8
0
10
199.75
20
16.25
11
199.75
21
-2.25
0
LINE
8
0
10
199.75
20
16.75
11
218.25
21
16.75
0
LINE
8
0
10
218.25
20
16.75
11
218.25
21
35.25
0
LINE
8
0
10
218.25
20
35.25
11
199.75
21
35.25
0
LINE
8
0
10
199.75
20
35.25
11
199.75
21
16.75
0
LINE
8
0
10
199.75
20
35.75
11
218.25
21
35.75
0
LINE
8
0
10
218.25
20
35.75
11
218.25
21
54.25
0
LINE
8
0
10
218.25
20
54.25
11
199.75
21
54.25
0
LINE
8
0
10
199.75
20
54.25
11
199.75
21
35.75
0
LINE
8
0
10
180.75
20
-2.25
11
199.25
21
-2.25
0
LINE
8
0
10
199.25
20
-2.25
11
199.25
21
16.25
0
LINE
8
0
10
199.25
20
16.25
11
180.75
21
16.25
0
LINE
8
0
10
180.75
20
16.25
11
180.75
21
-2.25
0
LINE
8
0
10
180.75
20
16.75
11
199.25
21
16.75
0
LINE
8
0
10
199.25
20
16.75
11
199.25
21
35.25
0
LINE
8
0
10
199.25
20
35.25
11
180.75
21
35.25
0
LINE
8
0
10
180.75
20
35.25
11
180.75
21
16.75
0
LINE
8
0
10
180.75
20
35.75
11
199.25
21
35.75
0
LINE
8
0
10
199.25
20
35.75
11
199.25
21
54.25
0
LINE
8
0
10
199.25
20
54.25
11
180.75
21
54.25
0
LINE
8
0
10
180.75
20
54.25
11
180.75
21
35.75
0
LINE
8
0
10
202.4592623
20
-32.8288901
11
220.3288901
21
-28.0407377
0
LINE
8
0
10
220.3288901
20
-28.0407377
11
215.5407377
21
-10.1711099
0
LINE
8
0
10
215.5407377
20
-10.1711099
11
197.6711099
21
-14.9592623
0
LINE
8
0
10
197.6711099
20
-14.9592623
11
202.4592623
21
-32.8288901
0
LINE
8
0
10
183.0655219
20
-43.7853477
11
199.0869919
21
-34.5353477
0
LINE
8
0
10
199.0869919
20
-34.5353477
11
189.8369919
21
-18.5138777
0
LINE
8
0
10
189.8369919
20
-18.5138777
11
173.8155219
21
-27.7638777
0
LINE
8
0
10
173.8155219
20
-27.7638777
11
183.0655219
21
-43.7853477
0
LINE
8
0
10
167.1218588
20
-58.8985322
11
180.2033343
21
-45.8170567
0
LINE
8
0
10
180.2033343
20
-45.8170567
11
167.1218588
21
-32.7355812
0
LINE
8
0
10
167.1218588
20
-32.7355812
11
154.0403833
21
-45.8170567
0
LINE
8
0
10
154.0403833
20
-45.8170567
11
167.1218588
21
-58.8985322
0
LINE
8
0
10
154.431086
20
-74.3944846
11
166.3226568
21
-60.2226624
0
LINE
8
0
10
166.3226568
20
-60.2226624
11
152.1508346
21
-48.3310916
0
LINE
8
0
10
152.1508346
20
-48.3310916
11
140.2592638
21
-62.5029138
0
LINE
8
0
10
140.2592638
20
-62.5029138
11
154.431086
21
-74.3944846
0
ENDSEC
0
EOF